Songs: Miserlou

 

h --> hammer-on (and, sometimes, play in same beat)
p --> pull-off (aka hammer-off)
(and, sometimes, play in same beat)
/ --> slide up
\ --> slide down
# --> rest
= --> hold note a beat
1pick --> singlepick
2pick --> doublepick

Tempo: Presto con huevos!
Doublepick all guitar passages unless otherwise indicated.

e|---------|---------|---------|
B|---------|---------|---------|
G|---------|---------|---------|
D|---------|---------|---------|
A|---------|---------|---------|
E|-#-#-7/0-|-0-0-0-0-|-0-0-0-0-|

"Ha!" "Hu!" "Hya!"
e|-----------|------------|---------|-----------|
B|-----------|------------|---------|-----------|
G|-----------|------------|---------|-----------|
D|-----------|------------|---------|-----------|
A|-----------|------------|---------|-----------|
E|-0-0h1-4-5-|-7-7h8-11-8-|-7-7-7-7-|-7-7-7-7/0-|


e|-----------|------------|---------|---------|
B|-----------|------------|---------|---------|
G|-----------|------------|---------|---------|
D|-----------|------------|---------|---------|
A|-----------|------------|---------|---------|
E|-0-0h1-4-5-|-7-7h8-11-8-|-7-7-7-7-|-7-7-7-7-|


e|---------------|---------------|---------|---------|
B|---------------|---------------|---------|---------|
G|---------------|---------------|---------|---------|
D|---------------|---------------|---------|---------|
A|---------------|---------------|---------|---------|
E|-8-7h8-7-8-7-5-|-7-5h7-5-7-5-1-|-4-4-4-4-|-4-4-4-4-|

1pick
e|---------------|----------------|---------|-----7/0-|
B|---------------|----------------|---------|---------|
G|---------------|----------------|---------|---------|
D|---------------|----------------|---------|---------|
A|---------------|----------------|---------|---------|
E|-5/8-7h8-7-8-5-|--7-5h7-5-7-5-#-|-1-4-0-0-|-0-0-----|


e|-0-0h1-4-5-|-7-7h8-11-8-|-7-7-7-7-|7-7-7/0-|
B|-0---------|------------|---------|--------|
G|-0---------|------------|---------|--------|
D|-----------|------------|---------|--------|
A|-----------|------------|---------|--------|
E|-----------|------------|---------|--------|


e|-0-0h1-4-5-|-7-7h8-11-8-|-7-7-7-7-|-7-7-7-7-|
B|-----------|------------|---------|---------|
G|-----------|------------|---------|---------|
D|-----------|------------|---------|---------|
A|-----------|------------|---------|---------|
E|-----------|------------|---------|---------|


e|-8-7h8-7-8-7-5-|-7-5h7-5-7-5-1-|-4-4-4-4-|-4-4-4-4-|
B|---------------|---------------|---------|---------|
G|---------------|---------------|---------|---------|
D|---------------|---------------|---------|---------|
A|---------------|---------------|---------|---------|
E|---------------|---------------|---------|---------|

singlepick
e|-5/8-7h8-7-8-7-5-|-7-5h7-5-7-5-#-|-1-4-0-0-|
B|-----------------|---------------|-------0-|
G|-----------------|---------------|-------0-|
D|-----------------|---------------|---------|
A|-----------------|---------------|---------|
E|-----------------|---------------|---------|


Begin trumpet lead passage (singlepick with vibrato).

e|-----------------|------|---------|------|----------|
B|-----------------|------|---------|------|----------|
G|-----------------|------|---------|------|----------|
D|-----------------|------|---------|------|----------|
A|-----------------|-0===-|-------0-|-2===-|-#-0h2-3=-|
E|-#-0-1-4-5-0-1-4-|------|-4h5p4---|------|----------|


e|---------|-------|-----------------|-------------|--------|
B|---------|-------|-----------------|-------------|--------|
G|---------|-------|-----------------|-------------|--------|
D|-----1==-|-1-2==-|-#-3-2h3p2h3-2-0-|-2-0h2p0h2-0-|--------|
A|-2h3-----|-------|-----------------|-------------|-3-2==-#|
E|---------|-------|-----------------|-------------|--------|


e|--------------|------|---------|-----|
B|--------------|------|---------|-----|
G|--------------|------|---------|-----|
D|--------------|------|---------|-----|
A|#-5-3h5p3h5-3-|-2===-|-0-2-0---|-----|
E|--------------|------|-------1-|-0==-|


Basically repeat the trumpet passage. In the original, the
trumpet plays only the first measure of this second take. To
capture the same effect with guitar, try doublepicking from
the second measure.

"trumpet" guitar--> "Hu-Ha!" "Ha!"
e|-----------------|------|---------|------|----------|
B|-----------------|------|---------|------|----------|
G|-----------------|------|---------|------|----------|
D|-----------------|------|---------|------|----------|
A|-----------------|-0000-|-------0-|-2222-|-#-0h2-33-|
E|-#-0-1-4-5-0-1-4-|------|-4h5p4---|------|----------|

"Hya!"
e|---------|-------|-----------------|-------------|--------|
B|---------|-------|-----------------|-------------|--------|
G|---------|-------|-----------------|-------------|--------|
D|-----111-|-1-222-|-#-3-2h3p2h3-2-0-|-2-0h2p0h2-0-|--------|
A|-2h3-----|-------|-----------------|-------------|-3-222-#|
E|---------|-------|-----------------|-------------|--------|

begin piano or guitar trills
e|--------------|------|---------|------|------|
B|--------------|------|---------|------|------|
G|--------------|------|---------|------|------|
D|--------------|------|---------|------|------|
A|#-5-3h5p3h5-3-|-2222-|-0-2-0---|------|------|
E|--------------|------|-------1-|-0000-|-0000-|


 




                         back